elbow room only

A community forum for fans of the mercury prize winning manchester band
 
HomeHome  GalleryGallery  SearchSearch  RegisterRegister  Log inLog in  

 

 Friend of Ours

Go down 
AuthorMessage
Jonny
tower crane driver
tower crane driver
Jonny

Male Number of posts : 891
Age : 31
Location : Leeds
Registration date : 2008-04-01

Friend of Ours Empty
PostSubject: Friend of Ours   Friend of Ours Icon_minitimeWed 13 Aug 2008, 00:22

It's a mission of mine to learn all the songs of incredible beauty, so here's another! I'm going to tab the intro for now...

Code:


E-------------------------------------------------
B-------------------------------------------------
G--4------4------4/5\4----4-2-2-0------------
D-------------------------------------------------
A--2------2------2/3\2----2-0-----------------
E-----------------------------2-0-----------

E2p0-0-------------------------------------------
B----0-------------------------------------------
G-----------------2------0------7------0------0
D-------------------------------------------------
A-----------------0-------------5---------------
E---------------------------------------------3



I'm quite confident that's accurate. Smile And it's as much as I feel like doing for now. Razz

Sorry it's hard to read to that format, it's because of the font colour! Umm, if you highlight it it's easier to read. Sorry, it's the only way to get it to line up well.

EDIT:
Here's the rest of intro:
Code:

E--------------------------------------------------------------
B---------------------------------------------------------------
G--0----------11/9--12------14----16--14--12/--5------
D--------------------------------------------------------------
A--------------9/7--10------12----14--12--10/--3------
E--0----------------------------------------------------------

E-------------------------------------------------
B-------------------------------------------------
G-----------------2------0------7------0------0
D-------------------------------------------------
A-----------------0-------------5----------------
E---------------------------------------------3---
Next is the main riff. bounce

EDIT2:
Which I believe is simply this:
Code:

E-------------------------------------------------
B-------------------------------------------------
G---0--2--4--2--0-----4--5--7--5--4--2~-------
D------------------2-----------------------------
A------0--2--0--------2--3--5--3--2--0~--------
E---3-----------3--0-------------------------------
There's lots going on here, added piano and bass, but those are at least the right notes at the top Smile
Back to top Go down
Jonny
tower crane driver
tower crane driver
Jonny

Male Number of posts : 891
Age : 31
Location : Leeds
Registration date : 2008-04-01

Friend of Ours Empty
PostSubject: Re: Friend of Ours   Friend of Ours Icon_minitimeThu 11 Dec 2008, 07:10

If anyone could figure out the 'Salford skyline' bit, that'd be grand. Smile
Back to top Go down
 
Friend of Ours
Back to top 
Page 1 of 1

Permissions in this forum:You cannot reply to topics in this forum
elbow room only :: welcome to elbow room only :: chords and tabs-
Jump to: